  0
SECTION
  2
HEADER
  9
$ACADVER
  1
AC1015
  9
$ACADMAINTVER
 70
     6
  9
$DWGCODEPAGE
  3
ANSI_1254
  9
$INSBASE
 10
0.0
 20
0.0
 30
0.0
  9
$EXTMIN
 10
0.0
 20
0.0
 30
0.0
  9
$EXTMAX
 10
279.4
 20
215.9
 30
0.0
  9
$LIMMIN
 10
0.0
 20
0.0
  9
$LIMMAX
 10
279.4
 20
215.9
  9
$ORTHOMODE
 70
     0
  9
$REGENMODE
 70
     1
  9
$FILLMODE
 70
     1
  9
$QTEXTMODE
 70
     0
  9
$MIRRTEXT
 70
     1
  9
$LTSCALE
 40
1.0
  9
$ATTMODE
 70
     1
  9
$TEXTSIZE
 40
3.5
  9
$TRACEWID
 40
1.0
  9
$TEXTSTYLE
  7
Standard
  9
$CLAYER
  8
0
  9
$CELTYPE
  6
ByLayer
  9
$CECOLOR
 62
   256
  9
$CELTSCALE
 40
1.0
  9
$DISPSILH
 70
     0
  9
$DIMSCALE
 40
1.0
  9
$DIMASZ
 40
3.5
  9
$DIMEXO
 40
1.0
  9
$DIMDLI
 40
3.75
  9
$DIMRND
 40
0.0
  9
$DIMDLE
 40
0.0
  9
$DIMEXE
 40
1.0
  9
$DIMTP
 40
0.0
  9
$DIMTM
 40
0.0
  9
$DIMTXT
 40
3.5
  9
$DIMCEN
 40
2.5
  9
$DIMTSZ
 40
0.0
  9
$DIMTOL
 70
     0
  9
$DIMLIM
 70
     0
  9
$DIMTIH
 70
     1
  9
$DIMTOH
 70
     1
  9
$DIMSE1
 70
     0
  9
$DIMSE2
 70
     0
  9
$DIMTAD
 70
     1
  9
$DIMZIN
 70
     0
  9
$DIMBLK
  1

  9
$DIMASO
 70
     1
  9
$DIMSHO
 70
     1
  9
$DIMPOST
  1

  9
$DIMAPOST
  1

  9
$DIMALT
 70
     0
  9
$DIMALTD
 70
     3
  9
$DIMALTF
 40
0.0393700787
  9
$DIMLFAC
 40
1.0
  9
$DIMTOFL
 70
     1
  9
$DIMTVP
 40
0.0
  9
$DIMTIX
 70
     0
  9
$DIMSOXD
 70
     0
  9
$DIMSAH
 70
     0
  9
$DIMBLK1
  1

  9
$DIMBLK2
  1

  9
$DIMSTYLE
  2
ISO-25
  9
$DIMCLRD
 70
     0
  9
$DIMCLRE
 70
     0
  9
$DIMCLRT
 70
     0
  9
$DIMTFAC
 40
1.0
  9
$DIMGAP
 40
1.524
  9
$DIMJUST
 70
     0
  9
$DIMSD1
 70
     0
  9
$DIMSD2
 70
     0
  9
$DIMTOLJ
 70
     0
  9
$DIMTZIN
 70
     0
  9
$DIMALTZ
 70
     0
  9
$DIMALTTZ
 70
     0
  9
$DIMUPT
 70
     0
  9
$DIMDEC
 70
     2
  9
$DIMTDEC
 70
     2
  9
$DIMALTU
 70
     2
  9
$DIMALTTD
 70
     3
  9
$DIMTXSTY
  7
Standard
  9
$DIMAUNIT
 70
     0
  9
$DIMADEC
 70
     2
  9
$DIMALTRND
 40
0.0
  9
$DIMAZIN
 70
     0
  9
$DIMDSEP
 70
    44
  9
$DIMATFIT
 70
     3
  9
$DIMFRAC
 70
     0
  9
$DIMLDRBLK
  1

  9
$DIMLUNIT
 70
     2
  9
$DIMLWD
 70
    -2
  9
$DIMLWE
 70
    -2
  9
$DIMTMOVE
 70
     0
  9
$LUNITS
 70
     2
  9
$LUPREC
 70
     2
  9
$SKETCHINC
 40
1.0
  9
$FILLETRAD
 40
10.0
  9
$AUNITS
 70
     0
  9
$AUPREC
 70
     2
  9
$MENU
  1
.
  9
$ELEVATION
 40
0.0
  9
$PELEVATION
 40
0.0
  9
$THICKNESS
 40
0.0
  9
$LIMCHECK
 70
     0
  9
$CHAMFERA
 40
0.0
  9
$CHAMFERB
 40
0.0
  9
$CHAMFERC
 40
0.0
  9
$CHAMFERD
 40
0.0
  9
$SKPOLY
 70
     0
  9
$TDCREATE
 40
2458985.683104861
  9
$TDUCREATE
 40
2458985.558104861
  9
$TDUPDATE
 40
2458985.683105231
  9
$TDUUPDATE
 40
2458985.558105231
  9
$TDINDWG
 40
0.0000000116
  9
$TDUSRTIMER
 40
0.0000000116
  9
$USRTIMER
 70
     1
  9
$ANGBASE
 50
0.0
  9
$ANGDIR
 70
     0
  9
$PDMODE
 70
     0
  9
$PDSIZE
 40
-1.0
  9
$PLINEWID
 40
0.0
  9
$SPLFRAME
 70
     0
  9
$SPLINETYPE
 70
     6
  9
$SPLINESEGS
 70
     8
  9
$HANDSEED
  5
CB
  9
$SURFTAB1
 70
     6
  9
$SURFTAB2
 70
     6
  9
$SURFTYPE
 70
     6
  9
$SURFU
 70
     6
  9
$SURFV
 70
     6
  9
$UCSBASE
  2

  9
$UCSNAME
  2

  9
$UCSORG
 10
0.0
 20
0.0
 30
0.0
  9
$UCSXDIR
 10
1.0
 20
0.0
 30
0.0
  9
$UCSYDIR
 10
0.0
 20
1.0
 30
0.0
  9
$UCSORTHOREF
  2

  9
$UCSORTHOVIEW
 70
     0
  9
$UCSORGTOP
 10
0.0
 20
0.0
 30
0.0
  9
$UCSORGBOTTOM
 10
0.0
 20
0.0
 30
0.0
  9
$UCSORGLEFT
 10
0.0
 20
0.0
 30
0.0
  9
$UCSORGRIGHT
 10
0.0
 20
0.0
 30
0.0
  9
$UCSORGFRONT
 10
0.0
 20
0.0
 30
0.0
  9
$UCSORGBACK
 10
0.0
 20
0.0
 30
0.0
  9
$PUCSBASE
  2

  9
$PUCSNAME
  2

  9
$PUCSORG
 10
0.0
 20
0.0
 30
0.0
  9
$PUCSXDIR
 10
1.0
 20
0.0
 30
0.0
  9
$PUCSYDIR
 10
0.0
 20
1.0
 30
0.0
  9
$PUCSORTHOREF
  2

  9
$PUCSORTHOVIEW
 70
     0
  9
$PUCSORGTOP
 10
0.0
 20
0.0
 30
0.0
  9
$PUCSORGBOTTOM
 10
0.0
 20
0.0
 30
0.0
  9
$PUCSORGLEFT
 10
0.0
 20
0.0
 30
0.0
  9
$PUCSORGRIGHT
 10
0.0
 20
0.0
 30
0.0
  9
$PUCSORGFRONT
 10
0.0
 20
0.0
 30
0.0
  9
$PUCSORGBACK
 10
0.0
 20
0.0
 30
0.0
  9
$USERI1
 70
     0
  9
$USERI2
 70
     0
  9
$USERI3
 70
     0
  9
$USERI4
 70
     0
  9
$USERI5
 70
     0
  9
$USERR1
 40
0.0
  9
$USERR2
 40
0.0
  9
$USERR3
 40
0.0
  9
$USERR4
 40
0.0
  9
$USERR5
 40
0.0
  9
$WORLDVIEW
 70
     1
  9
$SHADEDGE
 70
     3
  9
$SHADEDIF
 70
    70
  9
$TILEMODE
 70
     1
  9
$MAXACTVP
 70
    64
  9
$PINSBASE
 10
0.0
 20
0.0
 30
0.0
  9
$PLIMCHECK
 70
     0
  9
$PEXTMIN
 10
1.0000000000E+20
 20
1.0000000000E+20
 30
1.0000000000E+20
  9
$PEXTMAX
 10
-1.0000000000E+20
 20
-1.0000000000E+20
 30
-1.0000000000E+20
  9
$PLIMMIN
 10
0.0
 20
0.0
  9
$PLIMMAX
 10
420.0
 20
297.0
  9
$UNITMODE
 70
     0
  9
$VISRETAIN
 70
     1
  9
$PLINEGEN
 70
     0
  9
$PSLTSCALE
 70
     1
  9
$TREEDEPTH
 70
  3020
  9
$CMLSTYLE
  2
Standard
  9
$CMLJUST
 70
     0
  9
$CMLSCALE
 40
20.0
  9
$PROXYGRAPHICS
 70
     1
  9
$MEASUREMENT
 70
     1
  9
$CELWEIGHT
370
    -1
  9
$ENDCAPS
280
     0
  9
$JOINSTYLE
280
     0
  9
$LWDISPLAY
290
     1
  9
$INSUNITS
 70
     4
  9
$HYPERLINKBASE
  1

  9
$STYLESHEET
  1

  9
$XEDIT
290
     1
  9
$CEPSNTYPE
380
     0
  9
$PSTYLEMODE
290
     1
  9
$FINGERPRINTGUID
  2
{39a775cb-befd-4df7-9e78-3e07705c61f0}
  9
$VERSIONGUID
  2
{FAEB1C32-E019-11D5-929B-00C0DF256EC4}
  9
$EXTNAMES
290
     1
  9
$PSVPSCALE
 40
0.0
  9
$OLESTARTUP
290
     0
  0
ENDSEC
  0
SECTION
  2
CLASSES
  0
CLASS
  1
ACDBDICTIONARYWDFLT
  2
AcDbDictionaryWithDefault
  3
ObjectDBX Classes
 90
        0
280
     0
281
     0
  0
CLASS
  1
VISUALSTYLE
  2
AcDbVisualStyle
  3
ObjectDBX Classes
 90
     4095
280
     0
281
     0
  0
CLASS
  1
MATERIAL
  2
AcDbMaterial
  3
ObjectDBX Classes
 90
     1153
280
     0
281
     0
  0
CLASS
  1
SCALE
  2
AcDbScale
  3
ObjectDBX Classes
 90
     1153
280
     0
281
     0
  0
CLASS
  1
TABLESTYLE
  2
AcDbTableStyle
  3
ObjectDBX Classes
 90
     4095
280
     0
281
     0
  0
CLASS
  1
MLEADERSTYLE
  2
AcDbMLeaderStyle
  3
ACDB_MLEADERSTYLE_CLASS
 90
     4095
280
     0
281
     0
  0
CLASS
  1
SUN
  2
AcDbSun
  3
SCENEOE
 90
     1153
280
     0
281
     0
  0
CLASS
  1
ACDBPLACEHOLDER
  2
AcDbPlaceHolder
  3
ObjectDBX Classes
 90
        0
280
     0
281
     0
  0
CLASS
  1
LAYOUT
  2
AcDbLayout
  3
ObjectDBX Classes
 90
        0
280
     0
281
     0
  0
ENDSEC
  0
SECTION
  2
TABLES
  0
TABLE
  2
VPORT
  5
8
330
0
100
AcDbSymbolTable
 70
     1
  0
VPORT
  5
29
330
8
100
AcDbSymbolTableRecord
100
AcDbViewportTableRecord
  2
*Active
 70
     0
 10
0.0
 20
0.0
 11
1.0
 21
1.0
 12
139.7
 22
107.95
 13
0.0
 23
0.0
 14
10.0
 24
10.0
 15
10.0
 25
10.0
 16
0.0
 26
0.0
 36
1.0
 17
0.0
 27
0.0
 37
0.0
 40
215.9
 41
1.2941176471
 42
50.0
 43
0.0
 44
0.0
 50
0.0
 51
0.0
 71
     0
 72
  2000
 73
     1
 74
     3
 75
     0
 76
     0
 77
     0
 78
     0
281
     0
 65
     1
110
0.0
120
0.0
130
0.0
111
1.0
121
0.0
131
0.0
112
0.0
122
1.0
132
0.0
 79
     0
146
0.0
  0
ENDTAB
  0
TABLE
  2
LTYPE
  5
5
330
0
100
AcDbSymbolTable
 70
     6
  0
LTYPE
  5
14
330
5
100
AcDbSymbolTableRecord
100
AcDbLinetypeTableRecord
  2
ByBlock
 70
     0
  3

 72
    65
 73
     0
 40
0.0
  0
LTYPE
  5
15
330
5
100
AcDbSymbolTableRecord
100
AcDbLinetypeTableRecord
  2
ByLayer
 70
     0
  3

 72
    65
 73
     0
 40
0.0
  0
LTYPE
  5
16
330
5
100
AcDbSymbolTableRecord
100
AcDbLinetypeTableRecord
  2
Continuous
 70
     0
  3
Solid line
 72
    65
 73
     0
 40
0.0
  0
LTYPE
  5
6E
330
5
100
AcDbSymbolTableRecord
100
AcDbLinetypeTableRecord
  2
HIDDEN
 70
     0
  3
Hidden __ __ __ __ __ __ __ __ __ __ __ __ __ __
 72
    65
 73
     2
 40
1.905
 49
1.27
 74
     0
 49
-0.635
 74
     0
  0
LTYPE
  5
6F
330
5
100
AcDbSymbolTableRecord
100
AcDbLinetypeTableRecord
  2
PHANTOM
 70
     0
  3
Phantom ______  __  __  ______  __  __  ______
 72
    65
 73
     6
 40
12.7
 49
6.35
 74
     0
 49
-1.27
 74
     0
 49
1.27
 74
     0
 49
-1.27
 74
     0
 49
1.27
 74
     0
 49
-1.27
 74
     0
  0
LTYPE
  5
70
330
5
100
AcDbSymbolTableRecord
100
AcDbLinetypeTableRecord
  2
CENTER
 70
     0
  3
Center ____ _ ____ _ ____ _ ____ _ ____ _ ____
 72
    65
 73
     4
 40
10.16
 49
6.35
 74
     0
 49
-1.27
 74
     0
 49
1.27
 74
     0
 49
-1.27
 74
     0
  0
LTYPE
  5
71
330
5
100
AcDbSymbolTableRecord
100
AcDbLinetypeTableRecord
  2
CENTERX2
 70
     0
  3
Center (2x) ________  __  ________  __  _____
 72
    65
 73
     4
 40
20.32
 49
12.7
 74
     0
 49
-2.54
 74
     0
 49
2.54
 74
     0
 49
-2.54
 74
     0
  0
LTYPE
  5
72
330
5
100
AcDbSymbolTableRecord
100
AcDbLinetypeTableRecord
  2
DOT2
 70
     0
  3
Dot (.5x) ........................................
 72
    65
 73
     2
 40
0.635
 49
0.0
 74
     0
 49
-0.635
 74
     0
  0
ENDTAB
  0
TABLE
  2
LAYER
  5
2
330
0
100
AcDbSymbolTable
 70
    17
  0
LAYER
  5
10
330
2
100
AcDbSymbolTableRecord
100
AcDbLayerTableRecord
  2
0
 70
     0
 62
     7
  6
Continuous
370
    -3
390
F
  0
LAYER
  5
73
330
2
100
AcDbSymbolTableRecord
100
AcDbLayerTableRecord
  2
FORMAT
 70
     0
 62
     7
  6
Continuous
370
    -3
390
F
  0
LAYER
  5
74
330
2
100
AcDbSymbolTableRecord
100
AcDbLayerTableRecord
  2
YARDIMCI_GEOMETRI
 70
     0
 62
    -6
  6
Continuous
290
     0
370
    -3
390
F
  0
LAYER
  5
75
330
2
100
AcDbSymbolTableRecord
100
AcDbLayerTableRecord
  2
SAYFA_CERCEVESI
 70
     0
 62
     7
  6
Continuous
370
    25
390
F
  0
LAYER
  5
76
330
2
100
AcDbSymbolTableRecord
100
AcDbLayerTableRecord
  2
ANTET
 70
     0
 62
     7
  6
Continuous
370
    -3
390
F
  0
LAYER
  5
77
330
2
100
AcDbSymbolTableRecord
100
AcDbLayerTableRecord
  2
OLCU
 70
     0
 62
   150
  6
Continuous
370
    -3
390
F
  0
LAYER
  5
78
330
2
100
AcDbSymbolTableRecord
100
AcDbLayerTableRecord
  2
METIN
 70
     0
 62
    96
  6
Continuous
370
    -3
390
F
  0
LAYER
  5
79
330
2
100
AcDbSymbolTableRecord
100
AcDbLayerTableRecord
  2
BALON
 70
     0
 62
     5
  6
Continuous
370
    -3
390
F
  0
LAYER
  5
7A
330
2
100
AcDbSymbolTableRecord
100
AcDbLayerTableRecord
  2
VURGU
 70
     0
 62
     7
  6
Continuous
370
    -3
390
F
  0
LAYER
  5
7B
330
2
100
AcDbSymbolTableRecord
100
AcDbLayerTableRecord
  2
SILIK
 70
     0
 62
     7
  6
Continuous
370
    -3
390
F
  0
LAYER
  5
7C
330
2
100
AcDbSymbolTableRecord
100
AcDbLayerTableRecord
  2
MODEL
 70
     0
 62
     7
  6
Continuous
370
    -3
390
F
  0
LAYER
  5
7D
330
2
100
AcDbSymbolTableRecord
100
AcDbLayerTableRecord
  2
DETAYLANDıRMA
 70
     0
 62
   190
  6
Continuous
370
    -3
390
F
  0
LAYER
  5
7E
330
2
100
AcDbSymbolTableRecord
100
AcDbLayerTableRecord
  2
TOLERANS
 70
     0
 62
   230
  6
Continuous
370
    -3
390
F
  0
LAYER
  5
7F
330
2
100
AcDbSymbolTableRecord
100
AcDbLayerTableRecord
  2
MERKEZ_CIZGILERI
 70
     0
 62
    30
  6
Continuous
370
    -3
390
F
  0
LAYER
  5
80
330
2
100
AcDbSymbolTableRecord
100
AcDbLayerTableRecord
  2
KESIT-DETAY_CIZGILERI
 70
     0
 62
     7
  6
Continuous
370
    -3
390
F
  0
LAYER
  5
81
330
2
100
AcDbSymbolTableRecord
100
AcDbLayerTableRecord
  2
\U+041E\U+0421\U+0415\U+0412\U+042B\U+0415
 70
     0
 62
     7
  6
Continuous
370
    -3
390
F
  0
LAYER
  5
82
330
2
100
AcDbSymbolTableRecord
100
AcDbLayerTableRecord
  2
\U+0412\U+041E\U+0414\U+042F\U+041D\U+042B\U+0415_\U+0417\U+041D\U+0410\U+041A\U+0418
 70
     0
 62
    11
  6
Continuous
370
    -3
390
F
  0
ENDTAB
  0
TABLE
  2
STYLE
  5
3
330
0
100
AcDbSymbolTable
 70
     1
  0
STYLE
  5
11
330
3
100
AcDbSymbolTableRecord
100
AcDbTextStyleTableRecord
  2
Standard
 70
     0
 40
0.0
 41
1.0
 50
0.0
 71
     0
 42
3.5
  3
txt
  4

  0
ENDTAB
  0
TABLE
  2
VIEW
  5
6
330
0
100
AcDbSymbolTable
 70
     0
  0
ENDTAB
  0
TABLE
  2
UCS
  5
7
330
0
100
AcDbSymbolTable
 70
     0
  0
ENDTAB
  0
TABLE
  2
APPID
  5
9
330
0
100
AcDbSymbolTable
 70
     1
  0
APPID
  5
12
330
9
100
AcDbSymbolTableRecord
100
AcDbRegAppTableRecord
  2
ACAD
 70
     0
  0
ENDTAB
  0
TABLE
  2
DIMSTYLE
  5
A
330
0
100
AcDbSymbolTable
 70
     1
100
AcDbDimStyleTable
  0
DIMSTYLE
105
27
330
A
100
AcDbSymbolTableRecord
100
AcDbDimStyleTableRecord
  2
ISO-25
 70
     0
 41
2.5
 42
0.625
 43
3.75
 44
1.25
 73
     0
 74
     0
 77
     1
 78
     8
140
2.5
141
2.5
143
0.0393700787
147
0.625
171
     3
172
     1
178
     0
271
     2
272
     2
274
     3
278
    44
283
     0
284
     8
340
11
  0
ENDTAB
  0
TABLE
  2
BLOCK_RECORD
  5
1
330
0
100
AcDbSymbolTable
 70
     3
  0
BLOCK_RECORD
  5
1F
330
1
100
AcDbSymbolTableRecord
100
AcDbBlockTableRecord
  2
*Model_Space
340
22
  0
BLOCK_RECORD
  5
1B
330
1
100
AcDbSymbolTableRecord
100
AcDbBlockTableRecord
  2
*Paper_Space
340
1E
  0
BLOCK_RECORD
  5
23
330
1
100
AcDbSymbolTableRecord
100
AcDbBlockTableRecord
  2
*Paper_Space0
340
26
  0
BLOCK_RECORD
  5
88
330
1
100
AcDbSymbolTableRecord
100
AcDbBlockTableRecord
  2
SW_CENTERMARKSYMBOL_0
340
0
102
{BLKREFS
331
93
102
}
  0
BLOCK_RECORD
  5
B2
330
1
100
AcDbSymbolTableRecord
100
AcDbBlockTableRecord
  2
SW_CENTERMARKSYMBOL_1
340
0
102
{BLKREFS
331
BD
102
}
  0
ENDTAB
  0
ENDSEC
  0
SECTION
  2
BLOCKS
  0
BLOCK
  5
20
330
1F
100
AcDbEntity
  8
0
100
AcDbBlockBegin
  2
*Model_Space
 70
     0
 10
0.0
 20
0.0
 30
0.0
  3
*Model_Space
  1

  0
ENDBLK
  5
21
330
1F
100
AcDbEntity
  8
0
100
AcDbBlockEnd
  0
BLOCK
  5
1C
330
1B
100
AcDbEntity
 67
     1
  8
0
100
AcDbBlockBegin
  2
*Paper_Space
 70
     0
 10
0.0
 20
0.0
 30
0.0
  3
*Paper_Space
  1

  0
ENDBLK
  5
1D
330
1B
100
AcDbEntity
 67
     1
  8
0
100
AcDbBlockEnd
  0
BLOCK
  5
24
330
23
100
AcDbEntity
  8
0
100
AcDbBlockBegin
  2
*Paper_Space0
 70
     0
 10
0.0
 20
0.0
 30
0.0
  3
*Paper_Space0
  1

  0
ENDBLK
  5
25
330
23
100
AcDbEntity
  8
0
100
AcDbBlockEnd
  0
BLOCK
  5
89
330
88
100
AcDbEntity
  8
0
100
AcDbBlockBegin
  2
SW_CENTERMARKSYMBOL_0
 70
     0
 10
0.0
 20
0.0
 30
0.0
  3
SW_CENTERMARKSYMBOL_0
  1

  0
LINE
  5
8B
330
88
100
AcDbEntity
  8
FORMAT
 62
     0
100
AcDbLine
 10
0.0
 20
0.0
 30
0.0
 11
0.0
 21
2.5
 31
0.0
  0
LINE
  5
8C
330
88
100
AcDbEntity
  8
FORMAT
 62
     0
100
AcDbLine
 10
0.0
 20
0.0
 30
0.0
 11
-2.5
 21
0.0
 31
0.0
  0
LINE
  5
8D
330
88
100
AcDbEntity
  8
FORMAT
 62
     0
100
AcDbLine
 10
0.0
 20
0.0
 30
0.0
 11
0.0
 21
-2.5
 31
0.0
  0
LINE
  5
8E
330
88
100
AcDbEntity
  8
FORMAT
 62
     0
100
AcDbLine
 10
0.0
 20
0.0
 30
0.0
 11
2.5
 21
0.0
 31
0.0
  0
LINE
  5
8F
330
88
100
AcDbEntity
  8
FORMAT
 62
     0
100
AcDbLine
 10
0.0
 20
5.0
 30
0.0
 11
0.0
 21
115.0
 31
0.0
  0
LINE
  5
90
330
88
100
AcDbEntity
  8
FORMAT
 62
     0
100
AcDbLine
 10
-5.0
 20
0.0
 30
0.0
 11
-115.0
 21
0.0
 31
0.0
  0
LINE
  5
91
330
88
100
AcDbEntity
  8
FORMAT
 62
     0
100
AcDbLine
 10
0.0
 20
-5.0
 30
0.0
 11
0.0
 21
-115.0
 31
0.0
  0
LINE
  5
92
330
88
100
AcDbEntity
  8
FORMAT
 62
     0
100
AcDbLine
 10
5.0
 20
0.0
 30
0.0
 11
115.0
 21
0.0
 31
0.0
  0
ENDBLK
  5
8A
330
88
100
AcDbEntity
  8
0
100
AcDbBlockEnd
  0
BLOCK
  5
B3
330
B2
100
AcDbEntity
  8
0
100
AcDbBlockBegin
  2
SW_CENTERMARKSYMBOL_1
 70
     0
 10
0.0
 20
0.0
 30
0.0
  3
SW_CENTERMARKSYMBOL_1
  1

  0
LINE
  5
B5
330
B2
100
AcDbEntity
  8
FORMAT
 62
     0
100
AcDbLine
 10
0.0
 20
0.0
 30
0.0
 11
0.0
 21
2.5
 31
0.0
  0
LINE
  5
B6
330
B2
100
AcDbEntity
  8
FORMAT
 62
     0
100
AcDbLine
 10
0.0
 20
0.0
 30
0.0
 11
-2.5
 21
0.0
 31
0.0
  0
LINE
  5
B7
330
B2
100
AcDbEntity
  8
FORMAT
 62
     0
100
AcDbLine
 10
0.0
 20
0.0
 30
0.0
 11
0.0
 21
-2.5
 31
0.0
  0
LINE
  5
B8
330
B2
100
AcDbEntity
  8
FORMAT
 62
     0
100
AcDbLine
 10
0.0
 20
0.0
 30
0.0
 11
2.5
 21
0.0
 31
0.0
  0
LINE
  5
B9
330
B2
100
AcDbEntity
  8
FORMAT
 62
     0
100
AcDbLine
 10
0.0
 20
5.0
 30
0.0
 11
0.0
 21
65.0
 31
0.0
  0
LINE
  5
BA
330
B2
100
AcDbEntity
  8
FORMAT
 62
     0
100
AcDbLine
 10
-5.0
 20
0.0
 30
0.0
 11
-65.0
 21
0.0
 31
0.0
  0
LINE
  5
BB
330
B2
100
AcDbEntity
  8
FORMAT
 62
     0
100
AcDbLine
 10
0.0
 20
-5.0
 30
0.0
 11
0.0
 21
-65.0
 31
0.0
  0
LINE
  5
BC
330
B2
100
AcDbEntity
  8
FORMAT
 62
     0
100
AcDbLine
 10
5.0
 20
0.0
 30
0.0
 11
65.0
 21
0.0
 31
0.0
  0
ENDBLK
  5
B4
330
B2
100
AcDbEntity
  8
0
100
AcDbBlockEnd
  0
ENDSEC
  0
SECTION
  2
ENTITIES
  0
LINE
  5
83
330
1F
100
AcDbEntity
  8
0
  6
Continuous
 62
     7
370
    25
100
AcDbLine
 10
167.0874117816
 20
46.8862139987
 30
0.0
 11
312.5427147912
 21
46.8862139987
 31
0.0
  0
LINE
  5
84
330
1F
100
AcDbEntity
  8
0
  6
Continuous
 62
     7
370
    25
100
AcDbLine
 10
312.5427147912
 20
171.8862139987
 30
0.0
 11
167.0916124945
 21
171.8862139987
 31
0.0
  0
CIRCLE
  5
85
330
1F
100
AcDbEntity
  8
0
  6
Continuous
 62
     7
370
    25
100
AcDbCircle
 10
73.5427147912
 20
109.3862139987
 30
0.0
 40
92.00000000000001
  0
CIRCLE
  5
86
330
1F
100
AcDbEntity
  8
0
  6
Continuous
 62
     7
370
    25
100
AcDbCircle
 10
73.5427147912
 20
109.3862139987
 30
0.0
 40
112.5
  0
LINE
  5
87
330
1F
100
AcDbEntity
  8
0
  6
Continuous
 62
     7
370
    25
100
AcDbLine
 10
312.5427147912
 20
171.8862139987
 30
0.0
 11
312.5427147912
 21
46.8862139987
 31
0.0
  0
INSERT
  5
93
330
1F
100
AcDbEntity
  8
FORMAT
100
AcDbBlockReference
  2
SW_CENTERMARKSYMBOL_0
 10
73.5427147912
 20
109.3862139987
 30
0.0
  0
LINE
  5
94
330
1F
100
AcDbEntity
  8
0
  6
Continuous
 62
     7
370
    25
100
AcDbLine
 10
-38.9572852088
 20
-103.5232470985
 30
0.0
 11
-38.9572852088
 21
-630.5232470985
 31
0.0
  0
LINE
  5
95
330
1F
100
AcDbEntity
  8
0
  6
Continuous
 62
     7
370
    25
100
AcDbLine
 10
186.0427147912
 20
-304.5543921744
 30
0.0
 11
186.0427147912
 21
-103.5232470985
 31
0.0
  0
LINE
  5
96
330
1F
100
AcDbEntity
  8
0
  6
Continuous
 62
     7
370
    25
100
AcDbLine
 10
186.0427147912
 20
-630.5232470985
 30
0.0
 11
186.0427147912
 21
-429.5232470985
 31
0.0
  0
LINE
  5
97
330
1F
100
AcDbEntity
  8
0
  6
Continuous
 62
     7
370
    25
100
AcDbLine
 10
186.0427147912
 20
-429.5232470985
 30
0.0
 11
312.5427147912
 21
-429.5232470985
 31
0.0
  0
LINE
  5
98
330
1F
100
AcDbEntity
  8
0
  6
Continuous
 62
     7
370
    25
100
AcDbLine
 10
312.5427147912
 20
-304.5232470985
 30
0.0
 11
186.025410391
 21
-304.5232470985
 31
0.0
  0
SPLINE
  5
99
330
1F
100
AcDbEntity
  8
0
  6
Continuous
 62
     7
370
    25
100
AcDbSpline
210
0.0
220
0.0
230
1.0
 70
     8
 71
     3
 72
    46
 73
    42
 74
     0
 42
0.000000001
 43
0.00000001
 40
0.0
 40
0.0
 40
0.0
 40
0.0
 40
0.0042303783876517
 40
0.027380793162663
 40
0.0505317050495754
 40
0.074362462070243
 40
0.0981945000955995
 40
0.1213213930655188
 40
0.144449637427202
 40
0.1681307710149398
 40
0.191813181590853
 40
0.2173421764756193
 40
0.2428721564213077
 40
0.269014298077883
 40
0.2951563202309779
 40
0.3231428135649509
 40
0.3511271519904741
 40
0.3800273706957902
 40
0.4089229726226873
 40
0.43109241628138
 40
0.4532602059466448
 40
0.4760589921777187
 40
0.4988569381379415
 40
0.521037679170454
 40
0.5432190862918048
 40
0.5660521806916191
 40
0.588887100952427
 40
0.633259451793049
 40
0.6786133136198083
 40
0.7041556552335492
 40
0.7296987732014107
 40
0.7558486281057448
 40
0.7819979862659997
 40
0.8100786267710589
 40
0.838157162850813
 40
0.8671729840047175
 40
0.8961855060079883
 40
0.9216901946003557
 40
0.947193152924204
 40
0.973596981420152
 40
1.0
 40
1.0
 40
1.0
 40
1.0
 10
186.0253996994748
 20
-304.5543921744251
 30
0.0
 10
186.030996950348
 20
-304.5443270207837
 30
0.0
 10
186.0672247187406
 20
-304.4791811012574
 30
0.0
 10
185.9269148835763
 20
-304.7312833121263
 30
0.0
 10
185.6205248446219
 20
-305.2855916216646
 30
0.0
 10
185.1003709054191
 20
-306.2331044674546
 30
0.0
 10
184.4093271179905
 20
-307.5095850026797
 30
0.0
 10
183.5639948284406
 20
-309.0972840275991
 30
0.0
 10
182.5838123256725
 20
-310.9789847155103
 30
0.0
 10
181.4737784035701
 20
-313.1668834370787
 30
0.0
 10
180.2229210750924
 20
-315.7149440036957
 30
0.0
 10
178.8545241955626
 20
-318.6171646193897
 30
0.0
 10
177.3813699869114
 20
-321.9050377224779
 30
0.0
 10
175.8670633500692
 20
-325.4996579376081
 30
0.0
 10
174.3114608425209
 20
-329.4825604672066
 30
0.0
 10
172.7667102019566
 20
-333.8330587162542
 30
0.0
 10
171.2681066899125
 20
-338.6033451466533
 30
0.0
 10
169.9072163455359
 20
-343.6855073086321
 30
0.0
 10
168.8331505017198
 20
-348.6404790163072
 30
0.0
 10
168.0504948841844
 20
-353.324649180806
 30
0.0
 10
167.5112937496066
 20
-357.7123462545976
 30
0.0
 10
167.1718283136966
 20
-362.210152815012
 30
0.0
 10
167.0476801864197
 20
-366.7453554708764
 30
0.0
 10
167.1449281863322
 20
-371.2409537316453
 30
0.0
 10
167.4510036991512
 20
-375.7079072492401
 30
0.0
 10
167.9677763527118
 20
-380.1544266519165
 30
0.0
 10
168.9034119060467
 20
-385.9297850566217
 30
0.0
 10
170.4855351437957
 20
-392.864149742389
 30
0.0
 10
172.49234431224
 20
-399.4425464169163
 30
0.0
 10
174.3065826333329
 20
-404.5438718738174
 30
0.0
 10
175.8025084532547
 20
-408.3867368951317
 30
0.0
 10
177.3174718015658
 20
-411.9956931821899
 30
0.0
 10
178.8538807499961
 20
-415.4312535790963
 30
0.0
 10
180.3590033063439
 20
-418.6194610048592
 30
0.0
 10
181.8043662999692
 20
-421.5432069151871
 30
0.0
 10
183.1072714705927
 20
-424.0826055393075
 30
0.0
 10
184.1800228235886
 20
-426.1105756458291
 30
0.0
 10
185.0021404624247
 20
-427.6336029449258
 30
0.0
 10
185.5890492404147
 20
-428.7041518459319
 30
0.0
 10
185.9695649063541
 20
-429.3921953312962
 30
0.0
 10
186.0183317455684
 20
-429.4795636227365
 30
0.0
 10
186.0427147911989
 20
-429.5232470984585
 30
0.0
  0
LINE
  5
9A
330
1F
100
AcDbEntity
  8
0
  6
Continuous
 62
     7
370
    25
100
AcDbLine
 10
186.0427147912
 20
-630.5232470985
 30
0.0
 11
-38.9572852088
 21
-630.5232470985
 31
0.0
  0
LINE
  5
9B
330
1F
100
AcDbEntity
  8
0
  6
Continuous
 62
     7
370
    25
100
AcDbLine
 10
186.0427147912
 20
-103.5232470985
 30
0.0
 11
-38.9572852088
 21
-103.5232470985
 31
0.0
  0
LINE
  5
9C
330
1F
100
AcDbEntity
  8
0
  6
Continuous
 62
     7
370
    25
100
AcDbLine
 10
312.5427147912
 20
-304.5232470985
 30
0.0
 11
312.5427147912
 21
-429.5232470985
 31
0.0
  0
LINE
  5
9D
330
1F
100
AcDbEntity
  8
0
  6
Continuous
 62
     7
370
    25
100
AcDbLine
 10
186.0427147912
 20
659.5256318512
 30
0.0
 11
186.0427147912
 21
860.5256318512
 31
0.0
  0
LINE
  5
9E
330
1F
100
AcDbEntity
  8
0
  6
Continuous
 62
     7
370
    25
100
AcDbLine
 10
186.0427147912
 20
333.5256318512
 30
0.0
 11
186.0427147912
 21
534.5568474553
 31
0.0
  0
LINE
  5
9F
330
1F
100
AcDbEntity
  8
0
  6
Continuous
 62
     7
370
    25
100
AcDbLine
 10
-38.9572852088
 20
860.5256318512
 30
0.0
 11
-38.9572852088
 21
333.5256318512
 31
0.0
  0
LINE
  5
A0
330
1F
100
AcDbEntity
  8
0
  6
Continuous
 62
     7
370
    25
100
AcDbLine
 10
186.0253973368
 20
534.5256318512
 30
0.0
 11
312.5427147912
 21
534.5256318512
 31
0.0
  0
LINE
  5
A1
330
1F
100
AcDbEntity
  8
0
  6
Continuous
 62
     7
370
    25
100
AcDbLine
 10
312.5427147912
 20
659.5256318512
 30
0.0
 11
186.0427147912
 21
659.5256318512
 31
0.0
  0
SPLINE
  5
A2
330
1F
100
AcDbEntity
  8
0
  6
Continuous
 62
     7
370
    25
100
AcDbSpline
210
0.0
220
0.0
230
1.0
 70
     8
 71
     3
 72
    45
 73
    41
 74
     0
 42
0.000000001
 43
0.00000001
 40
0.0
 40
0.0
 40
0.0
 40
0.0
 40
0.0237680899463309
 40
0.0477184711345249
 40
0.0722333972122363
 40
0.0969369929735606
 40
0.1207020873937207
 40
0.14462136580524
 40
0.1689987890913454
 40
0.193523259069158
 40
0.2189828703061975
 40
0.2445932206872378
 40
0.270662607247926
 40
0.2968870978623543
 40
0.3247883948370505
 40
0.3528922928123128
 40
0.3816817645231111
 40
0.4107360059053866
 40
0.4328002106181298
 40
0.4550071118717195
 40
0.477686086245516
 40
0.500537654461357
 40
0.5226048326597914
 40
0.5448323151708712
 40
0.5675477518899278
 40
0.590422468698806
 40
0.6348682299280408
 40
0.6802948289094091
 40
0.7058314537220187
 40
0.731517148322174
 40
0.7576610251991868
 40
0.7839622610876937
 40
0.8119427338103489
 40
0.840132342493078
 40
0.8690246454318884
 40
0.8981821514008448
 40
0.9241034425840503
 40
0.9502429811168683
 40
0.9771053644193116
 40
1.0
 40
1.0
 40
1.0
 40
1.0
 10
186.0427147911989
 20
659.5256318512163
 30
0.0
 10
186.023181398597
 20
659.4905070955438
 30
0.0
 10
185.9839648004969
 20
659.4199881921129
 30
0.0
 10
185.6658579450023
 20
658.8457374368445
 30
0.0
 10
185.1569192406489
 20
657.9191358701001
 30
0.0
 10
184.4539425578632
 20
656.6226826826182
 30
0.0
 10
183.5880378519184
 20
654.9973393141618
 30
0.0
 10
182.5784957148632
 20
653.0602576525148
 30
0.0
 10
181.4295070720215
 20
650.794004191854
 30
0.0
 10
180.1477403932438
 20
648.1784448344589
 30
0.0
 10
178.7592627032509
 20
645.2242941866857
 30
0.0
 10
177.2841176170608
 20
641.9201079875842
 30
0.0
 10
175.7676021413136
 20
638.3039555010656
 30
0.0
 10
174.2149903218125
 20
634.3072036938859
 30
0.0
 10
172.6724490644198
 20
629.9343852065398
 30
0.0
 10
171.1829863652366
 20
625.1518086705445
 30
0.0
 10
169.8296642435853
 20
620.0457576662262
 30
0.0
 10
168.7706525664523
 20
615.0816065812202
 30
0.0
 10
168.0009750588512
 20
610.3828665394819
 30
0.0
 10
167.4790198498217
 20
606.0008278684368
 30
0.0
 10
167.154222173566
 20
601.5012526037231
 30
0.0
 10
167.047813431578
 20
596.9766573631929
 30
0.0
 10
167.1594361341547
 20
592.4832139244895
 30
0.0
 10
167.480645928791
 20
588.0321869971827
 30
0.0
 10
168.0097448896003
 20
583.5931293001435
 30
0.0
 10
168.9620348436805
 20
577.8279450700353
 30
0.0
 10
170.5625935253139
 20
570.8981276542982
 30
0.0
 10
172.582717294013
 20
564.3326838307412
 30
0.0
 10
174.405825490814
 20
559.2395549115159
 30
0.0
 10
175.905828903623
 20
555.4076433329462
 30
0.0
 10
177.4258272599006
 20
551.8041695332589
 30
0.0
 10
178.9594194366335
 20
548.3887708170992
 30
0.0
 10
180.4617613393031
 20
545.2177441462483
 30
0.0
 10
181.895389933264
 20
542.3253427272099
 30
0.0
 10
183.1893554311893
 20
539.8095865283594
 30
0.0
 10
184.2524104998083
 20
537.802752476852
 30
0.0
 10
185.0706038438607
 20
536.2899330864522
 30
0.0
 10
185.6427140570125
 20
535.2471893956026
 30
0.0
 10
185.9901234882601
 20
534.6202010457525
 30
0.0
 10
186.0142741507767
 20
534.5768120022756
 30
0.0
 10
186.0253865652612
 20
534.5568474553453
 30
0.0
  0
LINE
  5
A3
330
1F
100
AcDbEntity
  8
0
  6
Continuous
 62
     7
370
    25
100
AcDbLine
 10
-38.9572852088
 20
860.5256318512
 30
0.0
 11
186.0427147912
 21
860.5256318512
 31
0.0
  0
LINE
  5
A4
330
1F
100
AcDbEntity
  8
0
  6
Continuous
 62
     7
370
    25
100
AcDbLine
 10
-38.9572852088
 20
333.5256318512
 30
0.0
 11
186.0427147912
 21
333.5256318512
 31
0.0
  0
LINE
  5
A5
330
1F
100
AcDbEntity
  8
0
  6
Continuous
 62
     7
370
    25
100
AcDbLine
 10
312.5427147912
 20
659.5256318512
 30
0.0
 11
312.5427147912
 21
534.5256318512
 31
0.0
  0
LINE
  5
A6
330
1F
100
AcDbEntity
  8
0
  6
Continuous
 62
     7
370
    25
100
AcDbLine
 10
433.0380837098
 20
-3.1137860013
 30
0.0
 11
960.0380837098
 21
-3.1137860013
 31
0.0
  0
LINE
  5
A7
330
1F
100
AcDbEntity
  8
0
  6
Continuous
 62
     7
370
    25
100
AcDbLine
 10
960.0380837098
 20
221.8862139987
 30
0.0
 11
433.0380837098
 21
221.8862139987
 31
0.0
  0
LINE
  5
A8
330
1F
100
AcDbEntity
  8
0
  6
Continuous
 62
     7
370
    25
100
AcDbLine
 10
960.0380837098
 20
221.8862139987
 30
0.0
 11
960.0380837098
 21
-3.1137860013
 31
0.0
  0
LINE
  5
A9
330
1F
100
AcDbEntity
  8
0
  6
Continuous
 62
     7
370
    25
100
AcDbLine
 10
433.0380837098
 20
221.8862139987
 30
0.0
 11
433.0380837098
 21
-3.1137860013
 31
0.0
  0
LINE
  5
AA
330
1F
100
AcDbEntity
  8
0
  6
Continuous
 62
     7
370
    25
100
AcDbLine
 10
-129.5297679691
 20
221.8862139987
 30
0.0
 11
-656.5297679691
 21
221.8862139987
 31
0.0
  0
LINE
  5
AB
330
1F
100
AcDbEntity
  8
0
  6
Continuous
 62
     7
370
    25
100
AcDbLine
 10
-656.5297679691
 20
-3.1137860013
 30
0.0
 11
-129.5297679691
 21
-3.1137860013
 31
0.0
  0
CIRCLE
  5
AC
330
1F
100
AcDbEntity
  8
0
  6
Continuous
 62
     7
370
    25
100
AcDbCircle
 10
-393.0297679691
 20
109.3862139987
 30
0.0
 40
51.10000000000002
  0
CIRCLE
  5
AD
330
1F
100
AcDbEntity
  8
0
  6
Continuous
 62
     7
370
    25
100
AcDbCircle
 10
-393.0297679691
 20
109.3862139987
 30
0.0
 40
62.5
  0
LINE
  5
AE
330
1F
100
AcDbEntity
  8
0
  6
Continuous
 62
     7
370
    25
100
AcDbLine
 10
-656.5297679691
 20
109.3862139987
 30
0.0
 11
-656.5297679691
 21
221.8862139987
 31
0.0
  0
LINE
  5
AF
330
1F
100
AcDbEntity
  8
0
  6
Continuous
 62
     7
370
    25
100
AcDbLine
 10
-656.5297679691
 20
-3.1137860013
 30
0.0
 11
-656.5297679691
 21
109.3862139987
 31
0.0
  0
LINE
  5
B0
330
1F
100
AcDbEntity
  8
0
  6
Continuous
 62
     7
370
    25
100
AcDbLine
 10
-129.5297679691
 20
109.3862139987
 30
0.0
 11
-129.5297679691
 21
221.8862139987
 31
0.0
  0
LINE
  5
B1
330
1F
100
AcDbEntity
  8
0
  6
Continuous
 62
     7
370
    25
100
AcDbLine
 10
-129.5297679691
 20
-3.1137860013
 30
0.0
 11
-129.5297679691
 21
109.3862139987
 31
0.0
  0
INSERT
  5
BD
330
1F
100
AcDbEntity
  8
FORMAT
100
AcDbBlockReference
  2
SW_CENTERMARKSYMBOL_1
 10
-393.0297679691
 20
109.3862139987
 30
0.0
  0
LINE
  5
BE
330
1F
100
AcDbEntity
  8
0
  6
Continuous
 62
     7
370
    25
100
AcDbLine
 10
898.7020398542
 20
-353.4862030855
 30
0.0
 11
831.1481972453
 21
-314.4881998432
 31
0.0
  0
LINE
  5
BF
330
1F
100
AcDbEntity
  8
0
  6
Continuous
 62
     7
370
    25
100
AcDbLine
 10
706.1380379992
 20
-242.3213710245
 30
0.0
 11
526.0567661688
 21
-138.3626656202
 31
0.0
  0
LINE
  5
C0
330
1F
100
AcDbEntity
  8
0
  6
Continuous
 62
     7
370
    25
100
AcDbLine
 10
413.5659087473
 20
-333.2236596558
 30
0.0
 11
786.2111824326
 21
-548.3471971211
 31
0.0
  0
LINE
  5
C1
330
1F
100
AcDbEntity
  8
0
  6
Continuous
 62
     7
370
    25
100
AcDbLine
 10
760.5335976987
 20
-355.2531404553
 30
0.0
 11
856.3799553992
 21
-299.9222159066
 31
0.0
  0
LINE
  5
C2
330
1F
100
AcDbEntity
  8
0
  6
Continuous
 62
     7
370
    25
100
AcDbLine
 10
793.8850346094
 20
-191.666108109
 30
0.0
 11
698.0390072765
 21
-246.9968419406
 31
0.0
  0
SPLINE
  5
C3
330
1F
100
AcDbEntity
  8
0
  6
Continuous
 62
     7
370
    25
100
AcDbSpline
210
0.0
220
0.0
230
1.0
 70
     8
 71
     3
 72
    36
 73
    32
 74
     0
 42
0.000000001
 43
0.00000001
 40
0.0
 40
0.0
 40
0.0
 40
0.0
 40
0.0316739973103621
 40
0.0639662709012879
 40
0.0962598627231529
 40
0.1291805402983085
 40
0.1608505456897537
 40
0.1930301827510808
 40
0.2252118760770477
 40
0.2578938458049184
 40
0.2918220099807417
 40
0.3262565669125661
 40
0.3606917357085546
 40
0.3956391987593348
 40
0.4328212191626428
 40
0.4702732311202367
 40
0.5086388571168404
 40
0.5473573223142876
 40
0.5767606762356485
 40
0.6066695024002582
 40
0.6365765380898447
 40
0.6670291538381218
 40
0.6964364703066626
 40
0.7263814965194269
 40
0.7563283297534985
 40
0.7868117939408069
 40
0.8460414133511415
 40
0.9065781235875847
 40
0.940608918130046
 40
0.9751435579341554
 40
1.0
 40
1.0
 40
1.0
 40
1.0
 10
691.4893133600499
 20
-271.9192215861516
 30
0.0
 10
691.5003371609646
 20
-273.2404130180273
 30
0.0
 10
691.5225999473365
 20
-275.9085855324
 30
0.0
 10
691.7046064863373
 20
-280.1920927443346
 30
0.0
 10
692.0005152963178
 20
-284.6854448554161
 30
0.0
 10
692.4185888903927
 20
-289.2906675765597
 30
0.0
 10
692.9572564248177
 20
-293.9843886256672
 30
0.0
 10
693.6137834681748
 20
-298.7019195791921
 30
0.0
 10
694.4043556498867
 20
-303.4951359475756
 30
0.0
 10
695.3446168034512
 20
-308.3693920150025
 30
0.0
 10
696.4550546554321
 20
-313.3170375479223
 30
0.0
 10
697.7491622594235
 20
-318.2782732168499
 30
0.0
 10
699.2346350809769
 20
-323.183126552413
 30
0.0
 10
700.9579738300538
 20
-328.0753811344904
 30
0.0
 10
702.9592769930459
 20
-332.9176641652144
 30
0.0
 10
705.2878668524307
 20
-337.6653089831015
 30
0.0
 10
707.9414245707011
 20
-342.1746763880294
 30
0.0
 10
710.702851917223
 20
-346.0281763839685
 30
0.0
 10
713.4898606012554
 20
-349.2526885442541
 30
0.0
 10
716.2211667969572
 20
-351.9034123255475
 30
0.0
 10
719.1733389698958
 20
-354.2709887293664
 30
0.0
 10
722.2867667988219
 20
-356.2837794291652
 30
0.0
 10
725.5546372437863
 20
-357.9425980723936
 30
0.0
 10
728.9303480430154
 20
-359.2306012530833
 30
0.0
 10
732.4431855805965
 20
-360.1655814613566
 30
0.0
 10
737.1805871511929
 20
-360.9126508169055
 30
0.0
 10
743.2115828645944
 20
-360.9605160224781
 30
0.0
 10
749.2854337372939
 20
-359.8932377110501
 30
0.0
 10
754.1810008921641
 20
-358.312916812478
 30
0.0
 10
757.6158684409825
 20
-356.8757897958901
 30
0.0
 10
759.6588795604156
 20
-355.7072907569565
 30
0.0
 10
760.5139235490275
 20
-355.2182488376857
 30
0.0
  0
SPLINE
  5
C4
330
1F
100
AcDbEntity
  8
0
  6
Continuous
 62
     7
370
    25
100
AcDbSpline
210
0.0
220
0.0
230
1.0
 70
     8
 71
     3
 72
    17
 73
    13
 74
     0
 42
0.000000001
 43
0.00000001
 40
0.0
 40
0.0
 40
0.0
 40
0.0
 40
0.0215250832688322
 40
0.1266022025639383
 40
0.2386824655976086
 40
0.3515967080941909
 40
0.4673105844283514
 40
0.5840804000612198
 40
0.6858492615938321
 40
0.7897907425101113
 40
0.8937266306297684
 40
1.0
 40
1.0
 40
1.0
 40
1.0
 10
698.0548847994646
 20
-247.0252183008948
 30
0.0
 10
697.951616728316
 20
-247.0732112639115
 30
0.0
 10
697.3442339322243
 20
-247.3554872834556
 30
0.0
 10
696.3841845777341
 20
-248.2488042219053
 30
0.0
 10
695.1788358522714
 20
-249.7679405738933
 30
0.0
 10
694.1386615948963
 20
-251.8119868599037
 30
0.0
 10
693.2616046732635
 20
-254.3362181344447
 30
0.0
 10
692.5871034525309
 20
-257.2375002506157
 30
0.0
 10
692.0879712378562
 20
-260.4397608543041
 30
0.0
 10
691.747563353056
 20
-263.8765383552069
 30
0.0
 10
691.5300841210686
 20
-267.6842390920569
 30
0.0
 10
691.5030039887844
 20
-270.4971344929782
 30
0.0
 10
691.4893133600499
 20
-271.9192215861516
 30
0.0
  0
LWPOLYLINE
  5
C5
330
1F
100
AcDbEntity
  8
0
  6
Continuous
 62
     7
370
    25
100
AcDbPolyline
 90
      113
 70
   128
 43
0.0
 10
549.3608503416
 20
-189.870206348
 10
549.2357042425
 20
-184.7917731958
 10
548.8606597014
 20
-179.8738092835
 10
548.2368967471
 20
-175.131788345
 10
547.3663779686
 20
-170.5806305326
 10
546.2518423401
 20
-166.2346554725
 10
544.8967966029
 20
-162.1075372101
 10
543.3055042324
 20
-158.2122611864
 10
541.4829720229
 20
-154.5610833808
 10
539.4349343351
 20
-151.1654917495
 10
537.1678350533
 20
-148.0361700801
 10
534.6888073106
 20
-145.1829643762
 10
532.0056510454
 20
-142.6148518786
 10
529.1268084599
 20
-140.3399128193
 10
526.0613374581
 20
-138.3653049982
 10
522.8188831457
 20
-136.6972412621
 10
519.4096474838
 20
-135.3409699566
 10
515.8443571888
 20
-134.300758413
 10
512.1342299833
 20
-133.5798795217
 10
508.2909392998
 20
-133.1806014343
 10
504.3265775529
 20
-133.1041804275
 10
500.2536180913
 20
-133.3508569499
 10
496.0848759522
 20
-133.9198548661
 10
491.8334675408
 20
-134.809383898
 10
487.5127693607
 20
-136.0166452582
 10
483.1363759269
 20
-137.5378404559
 10
478.7180569923
 20
-139.3681832481
 10
474.2717142229
 20
-141.5019146993
 10
469.8113374581
 20
-143.9323213009
 10
465.3509606932
 20
-146.6517560945
 10
460.9046179238
 20
-149.6516627323
 10
456.4862989892
 20
-152.9226023981
 10
452.1099055555
 20
-156.4542835056
 10
447.7892073754
 20
-160.2355940794
 10
443.5377989639
 20
-164.2546367174
 10
439.3690568248
 20
-168.4987660248
 10
435.2960973632
 20
-172.9546284004
 10
431.3317356163
 20
-177.6082040527
 10
427.4884449329
 20
-182.4448511111
 10
423.7783177273
 20
-187.4493516945
 10
420.2130274324
 20
-192.6059597927
 10
416.8037917704
 20
-197.8984508087
 10
413.5613374581
 20
-203.3101726078
 10
410.4958664562
 20
-208.8240979111
 10
407.6170238708
 20
-214.4228778697
 10
404.9338676055
 20
-220.0888966503
 10
402.4548398628
 20
-225.8043268618
 10
400.187740581
 20
-231.5511856462
 10
398.1397028932
 20
-237.3113912595
 10
396.3171706838
 20
-243.0668199639
 10
394.7258783132
 20
-248.7993630514
 10
393.370832576
 20
-254.4909838205
 10
392.2562969475
 20
-260.1237743267
 10
391.385778169
 20
-265.680011727
 10
390.7620152147
 20
-271.1422140431
 10
390.3869706736
 20
-276.4931951655
 10
390.2618245746
 20
-281.716118928
 10
390.3869706736
 20
-286.7945520802
 10
390.7620152147
 20
-291.7125159925
 10
391.385778169
 20
-296.454536931
 10
392.2562969475
 20
-301.0056947434
 10
393.370832576
 20
-305.3516698035
 10
394.7258783132
 20
-309.4787880659
 10
396.3171706838
 20
-313.3740640896
 10
398.1397028932
 20
-317.0252418952
 10
400.187740581
 20
-320.4208335265
 10
402.4548398628
 20
-323.5501551959
 10
404.9338676055
 20
-326.4033608998
 10
407.6170238708
 20
-328.9714733974
 10
410.4958664562
 20
-331.2464124567
 10
413.5613374581
 20
-333.2210202778
 10
416.8037917704
 20
-334.8890840139
 10
420.2130274324
 20
-336.2453553194
 10
423.7783177273
 20
-337.285566863
 10
427.4884449329
 20
-338.0064457543
 10
431.3317356163
 20
-338.4057238417
 10
435.2960973632
 20
-338.4821448485
 10
439.3690568248
 20
-338.2354683261
 10
443.5377989639
 20
-337.6664704099
 10
447.7892073754
 20
-336.776941378
 10
452.1099055555
 20
-335.5696800178
 10
456.4862989892
 20
-334.0484848201
 10
460.9046179238
 20
-332.2181420279
 10
465.3509606932
 20
-330.0844105767
 10
469.8113374581
 20
-327.6540039751
 10
474.2717142229
 20
-324.9345691815
 10
478.7180569923
 20
-321.9346625437
 10
483.1363759269
 20
-318.6637228779
 10
487.5127693607
 20
-315.1320417704
 10
491.8334675408
 20
-311.3507311966
 10
496.0848759522
 20
-307.3316885586
 10
500.2536180913
 20
-303.0875592512
 10
504.3265775529
 20
-298.6316968756
 10
508.2909392998
 20
-293.9781212233
 10
512.1342299833
 20
-289.1414741649
 10
515.8443571888
 20
-284.1369735815
 10
519.4096474838
 20
-278.9803654833
 10
522.8188831457
 20
-273.6878744673
 10
526.0613374581
 20
-268.2761526682
 10
529.1268084599
 20
-262.7622273649
 10
532.0056510454
 20
-257.1634474063
 10
534.6888073106
 20
-251.4974286257
 10
537.1678350533
 20
-245.7819984142
 10
539.4349343351
 20
-240.0351396298
 10
541.4829720229
 20
-234.2749340165
 10
543.3055042324
 20
-228.5195053121
 10
544.8967966029
 20
-222.7869622246
 10
546.2518423401
 20
-217.0953414555
 10
547.3663779686
 20
-211.4625509493
 10
548.2368967471
 20
-205.906313549
 10
548.8606597014
 20
-200.4441112329
 10
549.2357042425
 20
-195.0931301105
 10
549.3608503416
 20
-189.870206348
  0
LWPOLYLINE
  5
C6
330
1F
100
AcDbEntity
  8
0
  6
Continuous
 62
     7
370
    25
100
AcDbPolyline
 90
       16
 70
   128
 43
0.0
 10
922.0061240269
 20
-404.9937438133
 10
921.8809779279
 20
-399.9153106611
 10
921.5059333868
 20
-394.9973467488
 10
920.8821704325
 20
-390.2553258103
 10
920.011651654
 20
-385.7041679979
 10
918.8971160254
 20
-381.3581929378
 10
917.5420702883
 20
-377.2310746754
 10
915.9507779177
 20
-373.3357986517
 10
914.1282457082
 20
-369.6846208461
 10
912.0802080204
 20
-366.2890292148
 10
909.8131087386
 20
-363.1597075454
 10
907.3340809959
 20
-360.3065018415
 10
904.6509247307
 20
-357.7383893439
 10
901.7720821452
 20
-355.4634502845
 10
898.7066111434
 20
-353.4888424635
 10
898.7020398542
 20
-353.4862030855
  0
LWPOLYLINE
  5
C7
330
1F
100
AcDbEntity
  8
0
  6
Continuous
 62
     7
370
    25
100
AcDbPolyline
 90
       43
 70
   128
 43
0.0
 10
786.2111824326
 20
-548.3471971211
 10
789.4490654557
 20
-550.0126214792
 10
792.8583011177
 20
-551.3688927847
 10
796.4235914126
 20
-552.4091043283
 10
800.1337186182
 20
-553.1299832196
 10
803.9770093016
 20
-553.529261307
 10
807.9413710485
 20
-553.6056823138
 10
812.0143305102
 20
-553.3590057914
 10
816.1830726492
 20
-552.7900078752
 10
820.4344810607
 20
-551.9004788433
 10
824.7551792408
 20
-550.6932174831
 10
829.1315726745
 20
-549.1720222854
 10
833.5498916091
 20
-547.3416794932
 10
837.9962343785
 20
-545.207948042
 10
842.4566111434
 20
-542.7775414404
 10
846.9169879083
 20
-540.0581066467
 10
851.3633306777
 20
-537.0582000089
 10
855.7816496122
 20
-533.7872603431
 10
860.158043046
 20
-530.2555792357
 10
864.4787412261
 20
-526.4742686619
 10
868.7301496375
 20
-522.4552260238
 10
872.8988917766
 20
-518.2110967165
 10
876.9718512382
 20
-513.7552343409
 10
880.9362129851
 20
-509.1016586886
 10
884.7795036686
 20
-504.2650116302
 10
888.4896308741
 20
-499.2605110468
 10
892.0549211691
 20
-494.1039029486
 10
895.464156831
 20
-488.8114119326
 10
898.7066111434
 20
-483.3996901335
 10
901.7720821452
 20
-477.8857648301
 10
904.6509247307
 20
-472.2869848716
 10
907.3340809959
 20
-466.6209660909
 10
909.8131087386
 20
-460.9055358795
 10
912.0802080204
 20
-455.1586770951
 10
914.1282457082
 20
-449.3984714818
 10
915.9507779177
 20
-443.6430427774
 10
917.5420702883
 20
-437.9104996899
 10
918.8971160254
 20
-432.2188789207
 10
920.011651654
 20
-426.5860884146
 10
920.8821704325
 20
-421.0298510142
 10
921.5059333868
 20
-415.5676486982
 10
921.8809779279
 20
-410.2166675758
 10
922.0061240269
 20
-404.9937438133
  0
LWPOLYLINE
  5
C8
330
1F
100
AcDbEntity
  8
0
  6
Continuous
 62
     7
370
    25
100
AcDbPolyline
 90
      102
 70
   128
 43
0.0
 10
534.8651613272
 20
-198.2383894942
 10
534.7393210239
 20
-193.6407433025
 10
534.3622869655
 20
-189.2061766323
 10
533.7355178235
 20
-184.9518459608
 10
532.8614384462
 20
-180.8942104666
 10
531.7434304766
 20
-177.0489683533
 10
530.3858192706
 20
-173.4309961157
 10
528.793857162
 20
-170.0542909854
 10
526.9737031431
 20
-166.9319167786
 10
524.9323990361
 20
-164.0759533545
 10
522.6778422501
 20
-161.4974498809
 10
520.2187552273
 20
-159.2063820867
 10
517.5646516976
 20
-157.2116136682
 10
514.7257998721
 20
-155.5208619968
 10
511.7131827169
 20
-154.1406682624
 10
508.5384554625
 20
-153.0763721662
 10
505.2139005119
 20
-152.3320912633
 10
501.7523799225
 20
-151.9107050317
 10
498.1672856449
 20
-151.813843733
 10
494.4724877123
 20
-152.0418821048
 10
490.6822805803
 20
-152.5939379108
 10
486.8113278239
 20
-153.4678753543
 10
482.8746054073
 20
-154.6603133413
 10
478.8873437448
 20
-156.1666385608
 10
474.8649687771
 20
-157.9810233331
 10
470.8230422916
 20
-160.096448156
 10
466.7772017166
 20
-162.5047288618
 10
462.7430996234
 20
-165.1965482804
 10
458.7363431692
 20
-168.1614922854
 10
454.7724337165
 20
-171.3880900843
 10
450.8667068607
 20
-174.8638585971
 10
447.0342731004
 20
-178.5753507507
 10
443.2899593773
 20
-182.508207503
 10
439.6482517137
 20
-186.6472133952
 10
436.1232391692
 20
-190.9763554175
 10
432.7285593325
 20
-195.4788849605
 10
429.4773455604
 20
-200.1373826121
 10
426.3821761673
 20
-204.9338255499
 10
423.4550257624
 20
-209.849657268
 10
420.707218922
 20
-214.8658593683
 10
418.1493863768
 20
-219.9630251395
 10
415.7914238842
 20
-225.1214346374
 10
413.6424539429
 20
-230.3211309778
 10
411.7107905001
 20
-235.5419975456
 10
410.0039067865
 20
-240.7638358224
 10
408.5284064036
 20
-245.9664435303
 10
407.2899977756
 20
-251.1296927907
 10
406.293472065
 20
-256.2336079954
 10
405.5426846362
 20
-261.2584430879
 10
405.0405401398
 20
-266.1847579573
 10
404.7889812755
 20
-270.9934936486
 10
404.7889812755
 20
-275.6660460975
 10
405.0405401398
 20
-280.1843381062
 10
405.5426846362
 20
-284.5308892809
 10
406.293472065
 20
-288.6888836593
 10
407.2899977756
 20
-292.6422347689
 10
408.5284064036
 20
-296.3756478624
 10
410.0039067865
 20
-299.8746790897
 10
411.7107905001
 20
-303.1257913789
 10
413.6424539429
 20
-306.1164068079
 10
415.7914238842
 20
-308.8349552668
 10
418.1493863768
 20
-311.2709192196
 10
420.707218922
 20
-313.414874395
 10
423.4550257624
 20
-315.258526247
 10
426.3821761673
 20
-316.7947420447
 10
429.4773455604
 20
-318.0175784677
 10
432.7285593325
 20
-318.9223045993
 10
436.1232391692
 20
-319.5054202299
 10
439.6482517137
 20
-319.7646693984
 10
443.2899593773
 20
-319.6990491202
 10
447.0342731004
 20
-319.3088132673
 10
450.8667068607
 20
-318.5954715866
 10
454.7724337165
 20
-317.5617838582
 10
458.7363431692
 20
-316.2117492193
 10
462.7430996234
 20
-314.5505906917
 10
466.7772017166
 20
-312.5847349748
 10
470.8230422916
 20
-310.3217875827
 10
474.8649687771
 20
-307.7705034192
 10
478.8873437448
 20
-304.940752907
 10
482.8746054073
 20
-301.8434838011
 10
486.8113278239
 20
-298.4906788341
 10
490.6822805803
 20
-294.895309357
 10
494.4724877123
 20
-291.0712851559
 10
498.1672856449
 20
-287.0334006374
 10
501.7523799225
 20
-282.7972775924
 10
505.2139005119
 20
-278.379304758
 10
508.5384554625
 20
-273.7965744129
 10
511.7131827169
 20
-269.0668162504
 10
514.7257998721
 20
-264.2083287861
 10
517.5646516976
 20
-259.239908564
 10
520.2187552273
 20
-254.180777437
 10
522.6778422501
 20
-249.0505082003
 10
524.9323990361
 20
-243.8689488692
 10
526.9737031431
 20
-238.65614589
 10
528.793857162
 20
-233.4322665847
 10
530.3858192706
 20
-228.2175211277
 10
531.7434304766
 20
-223.032084356
 10
532.8614384462
 20
-217.896017717
 10
533.7355178235
 20
-212.829191655
 10
534.3622869655
 20
-207.8512087355
 10
534.7393210239
 20
-202.9813278075
 10
534.8651613272
 20
-198.2383894942
  0
LWPOLYLINE
  5
C9
330
1F
100
AcDbEntity
  8
0
  6
Continuous
 62
     7
370
    25
100
AcDbPolyline
 90
       76
 70
   128
 43
0.0
 10
861.2656515229
 20
-266.6533892649
 10
861.1389274573
 20
-263.0887553008
 10
860.7596441385
 20
-259.402812191
 10
860.1304619667
 20
-255.6214141779
 10
859.2557942026
 20
-251.7710850517
 10
858.1417760122
 20
-247.8788321048
 10
856.7962214327
 20
-243.971956695
 10
855.2285685626
 20
-240.0778627461
 10
853.4498133605
 20
-236.2238645295
 10
851.4724325161
 20
-232.4369950734
 10
849.3102959353
 20
-228.7438165463
 10
846.9785694527
 20
-225.1702339419
 10
844.4936084542
 20
-221.7413133746
 10
841.8728431558
 20
-218.4811062585
 10
839.134656343
 20
-215.4124806041
 10
836.298254429
 20
-212.5569606156
 10
833.3835327352
 20
-209.9345757139
 10
830.4109359401
 20
-207.563720045
 10
827.4013146743
 20
-205.4610234579
 10
824.3757792688
 20
-203.6412348585
 10
821.3555516804
 20
-202.1171187561
 10
818.3618166357
 20
-200.8993657303
 10
815.4155730351
 20
-199.9965174434
 10
812.5374866604
 20
-199.4149067277
 10
809.7477452198
 20
-199.1586131642
 10
807.065916745
 20
-199.2294344683
 10
804.5108123359
 20
-199.6268738794
 10
802.100354214
 20
-200.3481436456
 10
799.8514500112
 20
-201.3881845777
 10
797.7798741746
 20
-202.7397015357
 10
795.9001573203
 20
-204.3932145994
 10
794.2254843115
 20
-206.3371255627
 10
792.767601776
 20
-208.5577992867
 10
791.5367357124
 20
-211.039659341
 10
790.5415197616
 20
-213.7652972603
 10
789.7889346487
 20
-216.7155946532
 10
789.2842592173
 20
-219.8698573032
 10
789.031033403
 20
-223.205960324
 10
789.031033403
 20
-226.7005033501
 10
789.2842592173
 20
-230.3289746729
 10
789.7889346487
 20
-234.0659231731
 10
790.5415197616
 20
-237.885136842
 10
791.5367357124
 20
-241.7598266398
 10
792.767601776
 20
-245.6628144016
 10
794.2254843115
 20
-249.5667234725
 10
795.9001573203
 20
-253.4441707352
 10
797.7798741746
 20
-257.2679586833
 10
799.8514500112
 20
-261.0112661916
 10
802.100354214
 20
-264.6478366475
 10
804.5108123359
 20
-268.1521621222
 10
807.065916745
 20
-271.4996622902
 10
809.7477452198
 20
-274.6668568432
 10
812.5374866604
 20
-277.6315301869
 10
815.4155730351
 20
-280.3728872679
 10
818.3618166357
 20
-282.871699436
 10
821.3555516804
 20
-285.1104393193
 10
824.3757792688
 20
-287.0734037659
 10
827.4013146743
 20
-288.7468239906
 10
830.4109359401
 20
-290.118962153
 10
833.3835327352
 20
-291.1801936897
 10
836.298254429
 20
-291.923074824
 10
839.134656343
 20
-292.3423947784
 10
841.8728431558
 20
-292.4352123249
 10
844.4936084542
 20
-292.2008764148
 10
846.9785694527
 20
-291.6410307465
 10
849.3102959353
 20
-290.7596022348
 10
851.4724325161
 20
-289.5627734675
 10
853.4498133605
 20
-288.0589393386
 10
855.2285685626
 20
-286.2586481639
 10
856.7962214327
 20
-284.1745276925
 10
858.1417760122
 20
-281.8211965321
 10
859.2557942026
 20
-279.2151616099
 10
860.1304619667
 20
-276.3747023885
 10
860.7596441385
 20
-273.3197426483
 10
861.1389274573
 20
-270.0717107371
 10
861.2656515229
 20
-266.6533892649
  0
LWPOLYLINE
  5
CA
330
1F
100
AcDbEntity
  8
0
  6
Continuous
 62
     7
370
    25
100
AcDbPolyline
 90
       84
 70
   128
 43
0.0
 10
869.3266688285
 20
-271.3069155023
 10
869.2000987157
 20
-267.3742257836
 10
868.8211133597
 20
-263.3179274139
 10
868.1918835541
 20
-259.1612545028
 10
867.3160134703
 20
-254.9280160965
 10
866.1985200129
 20
-250.6424598011
 10
864.8458040831
 20
-246.329132895
 10
863.2656139153
 20
-242.0127417241
 10
861.4670006957
 20
-237.7180101861
 10
859.460266718
 20
-233.4695381145
 10
857.2569063725
 20
-229.2916603723
 10
854.8695403079
 20
-225.2083074651
 10
852.3118431408
 20
-221.2428684684
 10
849.5984651289
 20
-217.4180570579
 10
846.7449482558
 20
-213.7557814067
 10
843.7676372076
 20
-210.2770186982
 10
840.6835857525
 20
-207.0016949702
 10
837.5104590578
 20
-203.9485709804
 10
834.266432506
 20
-201.1351347465
 10
830.9700875874
 20
-198.5775013765
 10
827.6403054671
 20
-196.2903207626
 10
824.2961588355
 20
-194.2866936684
 10
820.9568026618
 20
-192.5780966883
 10
817.6413644757
 20
-191.1743165111
 10
814.3688348069
 20
-190.0833938627
 10
811.1579584089
 20
-189.311577449
 10
808.0271268911
 20
-188.8632881647
 10
804.9942733727
 20
-188.7410937701
 10
802.0767697641
 20
-188.9456941837
 10
799.2913272618
 20
-189.4759174729
 10
796.6539006282
 20
-190.3287265665
 10
794.1795968041
 20
-191.4992366515
 10
791.8825883779
 20
-192.9807431521
 10
789.7760324057
 20
-194.764760133
 10
787.8719950495
 20
-196.8410689068
 10
786.1813824627
 20
-199.1977765646
 10
784.7138783211
 20
-201.8213840986
 10
783.4778883556
 20
-204.6968637222
 10
782.4804922048
 20
-207.8077449487
 10
781.7274028635
 20
-211.1362089321
 10
781.2229339593
 20
-214.6631905321
 10
780.9699750443
 20
-218.3684875176
 10
780.9699750443
 20
-222.2308762828
 10
781.2229339593
 20
-226.2282334148
 10
781.7274028635
 20
-230.3376624139
 10
782.4804922048
 20
-234.535624843
 10
783.4778883556
 20
-238.7980751534
 10
784.7138783211
 20
-243.1005984157
 10
786.1813824627
 20
-247.4185501663
 10
787.8719950495
 20
-251.7271975687
 10
789.7760324057
 20
-256.0018610807
 10
791.8825883779
 20
-260.2180558167
 10
794.1795968041
 20
-264.3516317953
 10
796.6539006282
 20
-268.3789122675
 10
799.2913272618
 20
-272.2768293354
 10
802.0767697641
 20
-276.0230560832
 10
804.9942733727
 20
-279.5961344632
 10
808.0271268911
 20
-282.975598206
 10
811.1579584089
 20
-286.1420900494
 10
814.3688348069
 20
-289.0774726149
 10
817.6413644757
 20
-291.764932297
 10
820.9568026618
 20
-294.1890755699
 10
824.2961588355
 20
-296.3360171605
 10
827.6403054671
 20
-298.1934595818
 10
830.9700875874
 20
-299.7507635719
 10
834.266432506
 20
-300.9990090345
 10
837.5104590578
 20
-301.9310461327
 10
840.6835857525
 20
-302.5415362423
 10
843.7676372076
 20
-302.8269825313
 10
846.7449482558
 20
-302.7857499891
 10
849.5984651289
 20
-302.4180747922
 10
852.3118431408
 20
-301.7260629506
 10
854.8695403079
 20
-300.7136782456
 10
857.2569063725
 20
-299.386719525
 10
859.460266718
 20
-297.7527874883
 10
861.4670006957
 20
-295.8212411502
 10
863.2656139153
 20
-293.6031442332
 10
864.8458040831
 20
-291.1112017955
 10
866.1985200129
 20
-288.3596874578
 10
867.3160134703
 20
-285.3643616451
 10
868.1918835541
 20
-282.1423813122
 10
868.8211133597
 20
-278.7122016709
 10
869.2000987157
 20
-275.0934704794
 10
869.3266688285
 20
-271.3069155023
  0
ENDSEC
  0
SECTION
  2
OBJECTS
  0
DICTIONARY
  5
C
330
0
100
AcDbDictionary
281
     1
  3
ACAD_GROUP
350
D
  3
ACAD_LAYOUT
350
1A
  3
ACAD_MLINESTYLE
350
17
  3
ACAD_PLOTSETTINGS
350
19
  3
ACAD_PLOTSTYLENAME
350
E
  3
ACAD_SCALELIST
350
47
  0
DICTIONARY
  5
D
102
{ACAD_REACTORS
330
C
102
}
330
C
100
AcDbDictionary
281
     1
  0
DICTIONARY
  5
1A
102
{ACAD_REACTORS
330
C
102
}
330
C
100
AcDbDictionary
281
     1
  3
Layout1
350
1E
  3
Layout2
350
26
  3
Model
350
22
  0
DICTIONARY
  5
17
102
{ACAD_REACTORS
330
C
102
}
330
C
100
AcDbDictionary
281
     1
  3
Standard
350
18
  0
DICTIONARY
  5
19
102
{ACAD_REACTORS
330
C
102
}
330
C
100
AcDbDictionary
281
     1
  0
ACDBDICTIONARYWDFLT
  5
E
102
{ACAD_REACTORS
330
C
102
}
330
C
100
AcDbDictionary
281
     1
  3
Normal
350
F
100
AcDbDictionaryWithDefault
340
F
  0
DICTIONARY
  5
47
102
{ACAD_REACTORS
330
C
102
}
330
C
100
AcDbDictionary
281
     1
  3
A0
350
48
  3
A1
350
49
  3
A2
350
4A
  3
A3
350
4B
  3
A4
350
4C
  3
A5
350
4D
  3
A6
350
4E
  3
A7
350
4F
  3
A8
350
50
  3
A9
350
51
  3
B0
350
52
  3
B1
350
53
  3
B2
350
54
  3
B3
350
55
  3
B4
350
56
  3
B5
350
57
  3
B6
350
58
  3
B7
350
59
  3
B8
350
5A
  3
B9
350
5B
  3
C0
350
5C
  3
C1
350
5D
  3
C2
350
5E
  3
C3
350
5F
  3
C4
350
60
  3
C5
350
61
  3
C6
350
62
  3
C7
350
63
  3
C8
350
64
  3
C9
350
65
  3
D0
350
66
  3
D1
350
67
  3
D2
350
68
  0
LAYOUT
  5
1E
102
{ACAD_REACTORS
330
1A
102
}
330
1A
100
AcDbPlotSettings
  1

  2
none_device
  4

  6

 40
0.0
 41
0.0
 42
0.0
 43
0.0
 44
0.0
 45
0.0
 46
0.0
 47
0.0
 48
0.0
 49
0.0
140
0.0
141
0.0
142
1.0
143
1.0
 70
   688
 72
     1
 73
     0
 74
     5
  7

 75
    16
147
1.0
148
0.0
149
0.0
100
AcDbLayout
  1
Layout1
 70
     1
 71
     1
 10
0.0
 20
0.0
 11
420.0
 21
297.0
 12
0.0
 22
0.0
 32
0.0
 14
1.0000000000E+20
 24
1.0000000000E+20
 34
1.0000000000E+20
 15
-1.0000000000E+20
 25
-1.0000000000E+20
 35
-1.0000000000E+20
146
0.0
 13
0.0
 23
0.0
 33
0.0
 16
1.0
 26
0.0
 36
0.0
 17
0.0
 27
1.0
 37
0.0
 76
     0
330
1B
  0
LAYOUT
  5
26
102
{ACAD_REACTORS
330
1A
102
}
330
1A
100
AcDbPlotSettings
  1

  2
none_device
  4

  6

 40
0.0
 41
0.0
 42
0.0
 43
0.0
 44
0.0
 45
0.0
 46
0.0
 47
0.0
 48
0.0
 49
0.0
140
0.0
141
0.0
142
1.0
143
1.0
 70
   688
 72
     1
 73
     0
 74
     5
  7

 75
    16
147
1.0
148
0.0
149
0.0
100
AcDbLayout
  1
Layout2
 70
     1
 71
     2
 10
0.0
 20
0.0
 11
0.0
 21
0.0
 12
0.0
 22
0.0
 32
0.0
 14
0.0
 24
0.0
 34
0.0
 15
0.0
 25
0.0
 35
0.0
146
0.0
 13
0.0
 23
0.0
 33
0.0
 16
1.0
 26
0.0
 36
0.0
 17
0.0
 27
1.0
 37
0.0
 76
     0
330
23
  0
LAYOUT
  5
22
102
{ACAD_REACTORS
330
1A
102
}
330
1A
100
AcDbPlotSettings
  1

  2
none_device
  4
Letter_(8.50_x_11.00_Inches)
  6

 40
6.35
 41
6.35
 42
6.35000508
 43
6.35000508
 44
215.9
 45
279.4
 46
0.0
 47
0.0
 48
0.0
 49
0.0
140
0.0
141
0.0
142
1.0
143
1.0
 70
  1712
 72
     1
 73
     0
 74
     0
  7

 75
     0
147
1.0
148
0.0
149
0.0
100
AcDbLayout
  1
Model
 70
     1
 71
     0
 10
0.0
 20
0.0
 11
279.4
 21
215.9
 12
0.0
 22
0.0
 32
0.0
 14
0.0
 24
0.0
 34
0.0
 15
279.4
 25
215.9
 35
0.0
146
0.0
 13
0.0
 23
0.0
 33
0.0
 16
1.0
 26
0.0
 36
0.0
 17
0.0
 27
1.0
 37
0.0
 76
     0
330
1F
331
29
  0
MLINESTYLE
  5
18
102
{ACAD_REACTORS
330
17
102
}
330
17
100
AcDbMlineStyle
  2
Standard
 70
     0
  3

 62
   256
 51
90.0
 52
90.0
 71
     2
 49
0.5
 62
   256
  6
BYLAYER
 49
-0.5
 62
   256
  6
BYLAYER
  0
ACDBPLACEHOLDER
  5
F
102
{ACAD_REACTORS
330
E
102
}
330
E
  0
SCALE
  5
48
102
{ACAD_REACTORS
330
47
102
}
330
47
100
AcDbScale
 70
     0
300
1:1
140
1.0
141
1.0
290
     1
  0
SCALE
  5
49
102
{ACAD_REACTORS
330
47
102
}
330
47
100
AcDbScale
 70
     0
300
1:2
140
1.0
141
2.0
290
     0
  0
SCALE
  5
4A
102
{ACAD_REACTORS
330
47
102
}
330
47
100
AcDbScale
 70
     0
300
1:4
140
1.0
141
4.0
290
     0
  0
SCALE
  5
4B
102
{ACAD_REACTORS
330
47
102
}
330
47
100
AcDbScale
 70
     0
300
1:5
140
1.0
141
5.0
290
     0
  0
SCALE
  5
4C
102
{ACAD_REACTORS
330
47
102
}
330
47
100
AcDbScale
 70
     0
300
1:8
140
1.0
141
8.0
290
     0
  0
SCALE
  5
4D
102
{ACAD_REACTORS
330
47
102
}
330
47
100
AcDbScale
 70
     0
300
1:10
140
1.0
141
10.0
290
     0
  0
SCALE
  5
4E
102
{ACAD_REACTORS
330
47
102
}
330
47
100
AcDbScale
 70
     0
300
1:16
140
1.0
141
16.0
290
     0
  0
SCALE
  5
4F
102
{ACAD_REACTORS
330
47
102
}
330
47
100
AcDbScale
 70
     0
300
1:20
140
1.0
141
20.0
290
     0
  0
SCALE
  5
50
102
{ACAD_REACTORS
330
47
102
}
330
47
100
AcDbScale
 70
     0
300
1:30
140
1.0
141
30.0
290
     0
  0
SCALE
  5
51
102
{ACAD_REACTORS
330
47
102
}
330
47
100
AcDbScale
 70
     0
300
1:40
140
1.0
141
40.0
290
     0
  0
SCALE
  5
52
102
{ACAD_REACTORS
330
47
102
}
330
47
100
AcDbScale
 70
     0
300
1:50
140
1.0
141
50.0
290
     0
  0
SCALE
  5
53
102
{ACAD_REACTORS
330
47
102
}
330
47
100
AcDbScale
 70
     0
300
1:100
140
1.0
141
100.0
290
     0
  0
SCALE
  5
54
102
{ACAD_REACTORS
330
47
102
}
330
47
100
AcDbScale
 70
     0
300
2:1
140
2.0
141
1.0
290
     0
  0
SCALE
  5
55
102
{ACAD_REACTORS
330
47
102
}
330
47
100
AcDbScale
 70
     0
300
4:1
140
4.0
141
1.0
290
     0
  0
SCALE
  5
56
102
{ACAD_REACTORS
330
47
102
}
330
47
100
AcDbScale
 70
     0
300
8:1
140
8.0
141
1.0
290
     0
  0
SCALE
  5
57
102
{ACAD_REACTORS
330
47
102
}
330
47
100
AcDbScale
 70
     0
300
10:1
140
10.0
141
1.0
290
     0
  0
SCALE
  5
58
102
{ACAD_REACTORS
330
47
102
}
330
47
100
AcDbScale
 70
     0
300
100:1
140
100.0
141
1.0
290
     0
  0
SCALE
  5
59
102
{ACAD_REACTORS
330
47
102
}
330
47
100
AcDbScale
 70
     0
300
1/128" = 1'-0"
140
0.0078125
141
12.0
290
     0
  0
SCALE
  5
5A
102
{ACAD_REACTORS
330
47
102
}
330
47
100
AcDbScale
 70
     0
300
1/64" = 1'-0"
140
0.015625
141
12.0
290
     0
  0
SCALE
  5
5B
102
{ACAD_REACTORS
330
47
102
}
330
47
100
AcDbScale
 70
     0
300
1/32" = 1'-0"
140
0.03125
141
12.0
290
     0
  0
SCALE
  5
5C
102
{ACAD_REACTORS
330
47
102
}
330
47
100
AcDbScale
 70
     0
300
1/16" = 1'-0"
140
0.0625
141
12.0
290
     0
  0
SCALE
  5
5D
102
{ACAD_REACTORS
330
47
102
}
330
47
100
AcDbScale
 70
     0
300
3/32" = 1'-0"
140
0.09375
141
12.0
290
     0
  0
SCALE
  5
5E
102
{ACAD_REACTORS
330
47
102
}
330
47
100
AcDbScale
 70
     0
300
1/8" = 1'-0"
140
0.125
141
12.0
290
     0
  0
SCALE
  5
5F
102
{ACAD_REACTORS
330
47
102
}
330
47
100
AcDbScale
 70
     0
300
3/16" = 1'-0"
140
0.1875
141
12.0
290
     0
  0
SCALE
  5
60
102
{ACAD_REACTORS
330
47
102
}
330
47
100
AcDbScale
 70
     0
300
1/4" = 1'-0"
140
0.25
141
12.0
290
     0
  0
SCALE
  5
61
102
{ACAD_REACTORS
330
47
102
}
330
47
100
AcDbScale
 70
     0
300
3/8" = 1'-0"
140
0.375
141
12.0
290
     0
  0
SCALE
  5
62
102
{ACAD_REACTORS
330
47
102
}
330
47
100
AcDbScale
 70
     0
300
1/2" = 1'-0"
140
0.5
141
12.0
290
     0
  0
SCALE
  5
63
102
{ACAD_REACTORS
330
47
102
}
330
47
100
AcDbScale
 70
     0
300
3/4" = 1'-0"
140
0.75
141
12.0
290
     0
  0
SCALE
  5
64
102
{ACAD_REACTORS
330
47
102
}
330
47
100
AcDbScale
 70
     0
300
1" = 1'-0"
140
1.0
141
12.0
290
     0
  0
SCALE
  5
65
102
{ACAD_REACTORS
330
47
102
}
330
47
100
AcDbScale
 70
     0
300
1-1/2" = 1'-0"
140
1.5
141
12.0
290
     0
  0
SCALE
  5
66
102
{ACAD_REACTORS
330
47
102
}
330
47
100
AcDbScale
 70
     0
300
3" = 1'-0"
140
3.0
141
12.0
290
     0
  0
SCALE
  5
67
102
{ACAD_REACTORS
330
47
102
}
330
47
100
AcDbScale
 70
     0
300
6" = 1'-0"
140
6.0
141
12.0
290
     0
  0
SCALE
  5
68
102
{ACAD_REACTORS
330
47
102
}
330
47
100
AcDbScale
 70
     0
300
1'-0" = 1'-0"
140
12.0
141
12.0
290
     0
  0
ENDSEC
  0
EOF
